ISO-10303-21;
HEADER;
FILE_DESCRIPTION (( 'STEP AP203' ),
    '1' );
FILE_NAME ('Q-AZHWP-20-1030-M.STEP',
    '2020-12-22T09:07:39',
    ( '' ),
    ( '' ),
    'SwSTEP 2.0',
    'SolidWorks 2020',
    '' );
FILE_SCHEMA (( 'CONFIG_CONTROL_DESIGN' ));
ENDSEC;

DATA;
#1 = CIRCLE ( 'NONE', #58, 12.69999999999999929 ) ;
#2 = LOCAL_TIME ( 17, 7, 39.00000000000000000, #48 ) ;
#3 = DIRECTION ( 'NONE',  ( 0.000000000000000000, 0.000000000000000000, 1.000000000000000000 ) ) ;
#4 = ADVANCED_BREP_SHAPE_REPRESENTATION ( 'Q-AZHWP-20-1030-M', ( #272, #260 ), #278 ) ;
#5 = DIRECTION ( 'NONE',  ( -1.000000000000000000, -0.000000000000000000, -0.000000000000000000 ) ) ;
#6 = PERSON_AND_ORGANIZATION ( #140, #306 ) ;
#7 = CARTESIAN_POINT ( 'NONE',  ( -1.614212418857619014, 0.000000000000000000, 12.69999999999999929 ) ) ;
#8 = AXIS2_PLACEMENT_3D ( 'NONE', #107, #264, #38 ) ;
#9 = CARTESIAN_POINT ( 'NONE',  ( -3.000000000000000444, 0.000000000000000000, 0.000000000000000000 ) ) ;
#10 = ORIENTED_EDGE ( 'NONE', *, *, #250, .T. ) ;
#11 = DIRECTION ( 'NONE',  ( 1.000000000000000000, 0.000000000000000000, 0.000000000000000000 ) ) ;
#12 = ORIENTED_EDGE ( 'NONE', *, *, #127, .T. ) ;
#13 = DIRECTION ( 'NONE',  ( -1.000000000000000000, -0.000000000000000000, -0.000000000000000000 ) ) ;
#14 = VERTEX_POINT ( 'NONE', #46 ) ;
#15 = DIRECTION ( 'NONE',  ( 0.000000000000000000, 0.000000000000000000, 1.000000000000000000 ) ) ;
#16 = DIRECTION ( 'NONE',  ( -1.000000000000000000, -0.000000000000000000, -0.000000000000000000 ) ) ;
#17 = LOCAL_TIME ( 17, 7, 39.00000000000000000, #248 ) ;
#18 = CIRCLE ( 'NONE', #128, 10.00000000000000000 ) ;
#19 = ORIENTED_EDGE ( 'NONE', *, *, #52, .T. ) ;
#20 = APPROVAL_STATUS ( 'not_yet_approved' ) ;
#21 = DIRECTION ( 'NONE',  ( -1.000000000000000000, -0.000000000000000000, -0.000000000000000000 ) ) ;
#22 = EDGE_CURVE ( 'NONE', #215, #41, #18, .T. ) ;
#23 = CARTESIAN_POINT ( 'NONE',  ( -1.614212418857619014, 0.000000000000000000, 0.000000000000000000 ) ) ;
#24 = APPROVAL_ROLE ( '' ) ;
#25 = DIRECTION ( 'NONE',  ( -1.000000000000000000, -0.000000000000000000, -0.000000000000000000 ) ) ;
#26 = SHAPE_DEFINITION_REPRESENTATION ( #262, #4 ) ;
#27 = FACE_BOUND ( 'NONE', #56, .T. ) ;
#28 = EDGE_CURVE ( 'NONE', #186, #14, #199, .T. ) ;
#29 = COORDINATED_UNIVERSAL_TIME_OFFSET ( 8, 0, .AHEAD. ) ;
#30 = ORIENTED_EDGE ( 'NONE', *, *, #164, .T. ) ;
#31 = PERSON_AND_ORGANIZATION ( #140, #306 ) ;
#32 = CYLINDRICAL_SURFACE ( 'NONE', #285, 10.00000000000000000 ) ;
#33 = ORIENTED_EDGE ( 'NONE', *, *, #197, .T. ) ;
#34 = ORIENTED_EDGE ( 'NONE', *, *, #125, .T. ) ;
#35 = ADVANCED_FACE ( 'NONE', ( #195, #131 ), #284, .F. ) ;
#36 = DIRECTION ( 'NONE',  ( -1.000000000000000000, -0.000000000000000000, -0.000000000000000000 ) ) ;
#37 = AXIS2_PLACEMENT_3D ( 'NONE', #177, #259, #291 ) ;
#38 = DIRECTION ( 'NONE',  ( -0.000000000000000000, 0.000000000000000000, 1.000000000000000000 ) ) ;
#39 = FACE_OUTER_BOUND ( 'NONE', #108, .T. ) ;
#40 = ADVANCED_FACE ( 'NONE', ( #253 ), #147, .F. ) ;
#41 = VERTEX_POINT ( 'NONE', #256 ) ;
#42 = ORIENTED_EDGE ( 'NONE', *, *, #292, .F. ) ;
#43 = CARTESIAN_POINT ( 'NONE',  ( 0.000000000000000000, 0.000000000000000000, 0.000000000000000000 ) ) ;
#44 = CARTESIAN_POINT ( 'NONE',  ( -2.500000000000000444, 0.000000000000000000, 0.000000000000000000 ) ) ;
#45 = CALENDAR_DATE ( 2020, 22, 12 ) ;
#46 = CARTESIAN_POINT ( 'NONE',  ( 3.000000000000000000, 0.000000000000000000, 12.69999999999999929 ) ) ;
#47 = AXIS2_PLACEMENT_3D ( 'NONE', #269, #299, #60 ) ;
#48 = COORDINATED_UNIVERSAL_TIME_OFFSET ( 8, 0, .AHEAD. ) ;
#49 = DIRECTION ( 'NONE',  ( -0.000000000000000000, 0.000000000000000000, 1.000000000000000000 ) ) ;
#50 = ORIENTED_EDGE ( 'NONE', *, *, #125, .F. ) ;
#51 = CARTESIAN_POINT ( 'NONE',  ( 2.999999999999999112, 1.224646799147353256E-15, -10.00000000000000000 ) ) ;
#52 = EDGE_CURVE ( 'NONE', #67, #263, #98, .T. ) ;
#53 = ORIENTED_EDGE ( 'NONE', *, *, #261, .F. ) ;
#54 = DIRECTION ( 'NONE',  ( -1.000000000000000000, -0.000000000000000000, -0.000000000000000000 ) ) ;
#55 = APPROVAL ( #304, 'UNSPECIFIED' ) ;
#56 = EDGE_LOOP ( 'NONE', ( #144, #173 ) ) ;
#57 = DIRECTION ( 'NONE',  ( 0.000000000000000000, 0.000000000000000000, -1.000000000000000000 ) ) ;
#58 = AXIS2_PLACEMENT_3D ( 'NONE', #184, #21, #185 ) ;
#59 = CC_DESIGN_SECURITY_CLASSIFICATION ( #201, ( #83 ) ) ;
#60 = DIRECTION ( 'NONE',  ( 0.000000000000000000, 0.000000000000000000, 1.000000000000000000 ) ) ;
#61 = EDGE_CURVE ( 'NONE', #186, #288, #316, .T. ) ;
#62 = ORIENTED_EDGE ( 'NONE', *, *, #120, .F. ) ;
#63 = FACE_OUTER_BOUND ( 'NONE', #319, .T. ) ;
#64 = CIRCLE ( 'NONE', #332, 12.69999999999999929 ) ;
#65 = EDGE_LOOP ( 'NONE', ( #62, #175 ) ) ;
#66 = CC_DESIGN_APPROVAL ( #55, ( #83 ) ) ;
#67 = VERTEX_POINT ( 'NONE', #106 ) ;
#68 = APPLICATION_PROTOCOL_DEFINITION ( 'international standard', 'config_control_design', 1994, #234 ) ;
#69 = ORIENTED_EDGE ( 'NONE', *, *, #120, .T. ) ;
#70 = APPROVAL_ROLE ( '' ) ;
#71 = APPROVAL_DATE_TIME ( #226, #55 ) ;
#72 = PERSON_AND_ORGANIZATION ( #140, #306 ) ;
#73 = DIRECTION ( 'NONE',  ( 0.000000000000000000, 0.000000000000000000, 1.000000000000000000 ) ) ;
#74 = CLOSED_SHELL ( 'NONE', ( #303, #244, #254, #194, #109, #40, #99, #274, #35, #205 ) ) ;
#75 = CARTESIAN_POINT ( 'NONE',  ( -3.000000000000000000, 0.000000000000000000, 0.000000000000000000 ) ) ;
#76 = PRODUCT_DEFINITION ( 'UNKNOWN', '', #83, #220 ) ;
#77 = CARTESIAN_POINT ( 'NONE',  ( 2.500000000000000888, 0.000000000000000000, 0.000000000000000000 ) ) ;
#78 = ORIENTED_EDGE ( 'NONE', *, *, #165, .T. ) ;
#79 = PRODUCT ( 'Q-AZHWP-20-1030-M', 'Q-AZHWP-20-1030-M', '', ( #187 ) ) ;
#80 = ORIENTED_EDGE ( 'NONE', *, *, #271, .T. ) ;
#81 = VECTOR ( 'NONE', #54, 1000.000000000000000 ) ;
#82 = FACE_OUTER_BOUND ( 'NONE', #157, .T. ) ;
#83 = PRODUCT_DEFINITION_FORMATION_WITH_SPECIFIED_SOURCE ( 'ANY', '', #79, .NOT_KNOWN. ) ;
#84 = DIRECTION ( 'NONE',  ( -1.000000000000000000, -0.000000000000000000, -0.000000000000000000 ) ) ;
#85 = DIRECTION ( 'NONE',  ( 0.000000000000000000, 0.000000000000000000, 1.000000000000000000 ) ) ;
#86 = VERTEX_POINT ( 'NONE', #281 ) ;
#87 = CARTESIAN_POINT ( 'NONE',  ( -1.614212418857619014, 0.000000000000000000, 10.00000000000000000 ) ) ;
#88 = VECTOR ( 'NONE', #151, 1000.000000000000000 ) ;
#89 = CIRCLE ( 'NONE', #207, 10.00000000000000000 ) ;
#90 = DIRECTION ( 'NONE',  ( -1.000000000000000000, -0.000000000000000000, -0.000000000000000000 ) ) ;
#91 = VECTOR ( 'NONE', #301, 1000.000000000000000 ) ;
#92 =( NAMED_UNIT ( * ) SI_UNIT ( $, .STERADIAN. ) SOLID_ANGLE_UNIT ( ) );
#93 = DIRECTION ( 'NONE',  ( 0.000000000000000000, 0.000000000000000000, 1.000000000000000000 ) ) ;
#94 = CIRCLE ( 'NONE', #169, 10.00000000000000000 ) ;
#95 = LOCAL_TIME ( 17, 7, 39.00000000000000000, #29 ) ;
#96 = DATE_AND_TIME ( #331, #17 ) ;
#97 = DIRECTION ( 'NONE',  ( 0.000000000000000000, 0.000000000000000000, 1.000000000000000000 ) ) ;
#98 = CIRCLE ( 'NONE', #318, 10.00000000000000000 ) ;
#99 = ADVANCED_FACE ( 'NONE', ( #27, #126 ), #314, .F. ) ;
#100 = SECURITY_CLASSIFICATION_LEVEL ( 'unclassified' ) ;
#101 = LINE ( 'NONE', #7, #138 ) ;
#102 = DIRECTION ( 'NONE',  ( 0.000000000000000000, 0.000000000000000000, 1.000000000000000000 ) ) ;
#103 = AXIS2_PLACEMENT_3D ( 'NONE', #23, #121, #196 ) ;
#104 = DIRECTION ( 'NONE',  ( -1.000000000000000000, -0.000000000000000000, -0.000000000000000000 ) ) ;
#105 = APPROVAL_PERSON_ORGANIZATION ( #31, #241, #24 ) ;
#106 = CARTESIAN_POINT ( 'NONE',  ( -3.000000000000000444, 1.224646799147353256E-15, -10.00000000000000000 ) ) ;
#107 = CARTESIAN_POINT ( 'NONE',  ( 2.500000000000000444, 10.00000000000000000, 0.000000000000000000 ) ) ;
#108 = EDGE_LOOP ( 'NONE', ( #162, #235, #19, #296 ) ) ;
#109 = ADVANCED_FACE ( 'NONE', ( #252 ), #174, .F. ) ;
#110 = EDGE_LOOP ( 'NONE', ( #231, #246, #290, #50 ) ) ;
#111 = DIRECTION ( 'NONE',  ( -1.000000000000000000, -0.000000000000000000, -0.000000000000000000 ) ) ;
#112 = ORIENTED_EDGE ( 'NONE', *, *, #249, .F. ) ;
#113 = FACE_OUTER_BOUND ( 'NONE', #266, .T. ) ;
#114 = ORIENTED_EDGE ( 'NONE', *, *, #127, .F. ) ;
#115 = DIRECTION ( 'NONE',  ( 0.000000000000000000, 0.000000000000000000, 1.000000000000000000 ) ) ;
#116 = EDGE_LOOP ( 'NONE', ( #10, #34 ) ) ;
#117 = CC_DESIGN_DATE_AND_TIME_ASSIGNMENT ( #122, #232, ( #76 ) ) ;
#118 = DIRECTION ( 'NONE',  ( -1.000000000000000000, -0.000000000000000000, -0.000000000000000000 ) ) ;
#119 = LINE ( 'NONE', #327, #91 ) ;
#120 = EDGE_CURVE ( 'NONE', #324, #86, #192, .T. ) ;
#121 = DIRECTION ( 'NONE',  ( -1.000000000000000000, -0.000000000000000000, -0.000000000000000000 ) ) ;
#122 = DATE_AND_TIME ( #283, #225 ) ;
#123 = EDGE_CURVE ( 'NONE', #14, #129, #101, .T. ) ;
#124 = DIRECTION ( 'NONE',  ( -1.000000000000000000, -0.000000000000000000, -0.000000000000000000 ) ) ;
#125 = EDGE_CURVE ( 'NONE', #288, #129, #64, .T. ) ;
#126 = FACE_OUTER_BOUND ( 'NONE', #116, .T. ) ;
#127 = EDGE_CURVE ( 'NONE', #215, #86, #172, .T. ) ;
#128 = AXIS2_PLACEMENT_3D ( 'NONE', #229, #334, #148 ) ;
#129 = VERTEX_POINT ( 'NONE', #204 ) ;
#130 = PERSON_AND_ORGANIZATION_ROLE ( 'design_supplier' ) ;
#131 = FACE_BOUND ( 'NONE', #152, .T. ) ;
#132 = FACE_OUTER_BOUND ( 'NONE', #65, .T. ) ;
#133 = ORIENTED_EDGE ( 'NONE', *, *, #323, .F. ) ;
#134 = CARTESIAN_POINT ( 'NONE',  ( 2.500000000000000888, 0.000000000000000000, 0.000000000000000000 ) ) ;
#135 = DIRECTION ( 'NONE',  ( 0.000000000000000000, 0.000000000000000000, 1.000000000000000000 ) ) ;
#136 = CARTESIAN_POINT ( 'NONE',  ( 3.000000000000000000, 1.555301434917138433E-15, -12.69999999999999929 ) ) ;
#137 = LINE ( 'NONE', #87, #222 ) ;
#138 = VECTOR ( 'NONE', #104, 1000.000000000000000 ) ;
#139 = DIRECTION ( 'NONE',  ( 1.000000000000000000, 0.000000000000000000, 0.000000000000000000 ) ) ;
#140 = PERSON ( 'UNSPECIFIED', 'UNSPECIFIED', 'UNSPECIFIED', ('UNSPECIFIED'), ('UNSPECIFIED'), ('UNSPECIFIED') ) ;
#141 = PERSON_AND_ORGANIZATION ( #140, #306 ) ;
#142 = AXIS2_PLACEMENT_3D ( 'NONE', #149, #227, #102 ) ;
#143 = AXIS2_PLACEMENT_3D ( 'NONE', #293, #16, #155 ) ;
#144 = ORIENTED_EDGE ( 'NONE', *, *, #197, .F. ) ;
#145 = CYLINDRICAL_SURFACE ( 'NONE', #238, 12.69999999999999929 ) ;
#146 = APPROVAL ( #20, 'UNSPECIFIED' ) ;
#147 = CYLINDRICAL_SURFACE ( 'NONE', #103, 10.00000000000000000 ) ;
#148 = DIRECTION ( 'NONE',  ( 0.000000000000000000, 0.000000000000000000, 1.000000000000000000 ) ) ;
#149 = CARTESIAN_POINT ( 'NONE',  ( 3.000000000000000000, 0.000000000000000000, 0.000000000000000000 ) ) ;
#150 = COORDINATED_UNIVERSAL_TIME_OFFSET ( 8, 0, .AHEAD. ) ;
#151 = DIRECTION ( 'NONE',  ( -1.000000000000000000, -0.000000000000000000, -0.000000000000000000 ) ) ;
#152 = EDGE_LOOP ( 'NONE', ( #30, #258 ) ) ;
#153 = EDGE_LOOP ( 'NONE', ( #42, #325 ) ) ;
#154 = AXIS2_PLACEMENT_3D ( 'NONE', #317, #239, #209 ) ;
#155 = DIRECTION ( 'NONE',  ( 0.000000000000000000, 0.000000000000000000, 1.000000000000000000 ) ) ;
#156 = APPROVAL_PERSON_ORGANIZATION ( #276, #146, #219 ) ;
#157 = EDGE_LOOP ( 'NONE', ( #216, #112 ) ) ;
#158 = CYLINDRICAL_SURFACE ( 'NONE', #305, 10.00000000000000000 ) ;
#159 = PLANE ( 'NONE',  #193 ) ;
#160 = LINE ( 'NONE', #326, #213 ) ;
#161 = DIRECTION ( 'NONE',  ( 1.000000000000000000, 0.000000000000000000, 0.000000000000000000 ) ) ;
#162 = ORIENTED_EDGE ( 'NONE', *, *, #328, .T. ) ;
#163 =( LENGTH_UNIT ( ) NAMED_UNIT ( * ) SI_UNIT ( .MILLI., .METRE. ) );
#164 = EDGE_CURVE ( 'NONE', #41, #215, #295, .T. ) ;
#165 = EDGE_CURVE ( 'NONE', #268, #263, #160, .T. ) ;
#166 = APPLICATION_PROTOCOL_DEFINITION ( 'international standard', 'config_control_design', 1994, #273 ) ;
#167 = CARTESIAN_POINT ( 'NONE',  ( -1.614212418857619014, 0.000000000000000000, 0.000000000000000000 ) ) ;
#168 = COORDINATED_UNIVERSAL_TIME_OFFSET ( 8, 0, .AHEAD. ) ;
#169 = AXIS2_PLACEMENT_3D ( 'NONE', #44, #161, #275 ) ;
#170 = PERSON_AND_ORGANIZATION_ROLE ( 'classification_officer' ) ;
#171 = APPROVAL_DATE_TIME ( #311, #241 ) ;
#172 = LINE ( 'NONE', #297, #81 ) ;
#173 = ORIENTED_EDGE ( 'NONE', *, *, #52, .F. ) ;
#174 = CYLINDRICAL_SURFACE ( 'NONE', #230, 10.00000000000000000 ) ;
#175 = ORIENTED_EDGE ( 'NONE', *, *, #271, .F. ) ;
#176 = CIRCLE ( 'NONE', #37, 12.69999999999999929 ) ;
#177 = CARTESIAN_POINT ( 'NONE',  ( -3.000000000000000000, 0.000000000000000000, 0.000000000000000000 ) ) ;
#178 = CC_DESIGN_APPROVAL ( #146, ( #76 ) ) ;
#179 = DIRECTION ( 'NONE',  ( -1.000000000000000000, -0.000000000000000000, -0.000000000000000000 ) ) ;
#180 = FACE_OUTER_BOUND ( 'NONE', #110, .T. ) ;
#181 = CARTESIAN_POINT ( 'NONE',  ( -1.614212418857619014, 0.000000000000000000, 0.000000000000000000 ) ) ;
#182 = CARTESIAN_POINT ( 'NONE',  ( -2.500000000000000444, 10.00000000000000000, 0.000000000000000000 ) ) ;
#183 = ORIENTED_EDGE ( 'NONE', *, *, #249, .T. ) ;
#184 = CARTESIAN_POINT ( 'NONE',  ( 3.000000000000000000, 0.000000000000000000, 0.000000000000000000 ) ) ;
#185 = DIRECTION ( 'NONE',  ( 0.000000000000000000, 0.000000000000000000, 1.000000000000000000 ) ) ;
#186 = VERTEX_POINT ( 'NONE', #136 ) ;
#187 = MECHANICAL_CONTEXT ( 'NONE', #234, 'mechanical' ) ;
#188 = CIRCLE ( 'NONE', #298, 10.00000000000000000 ) ;
#189 = CC_DESIGN_PERSON_AND_ORGANIZATION_ASSIGNMENT ( #141, #217, ( #79 ) ) ;
#190 = APPROVAL_DATE_TIME ( #96, #146 ) ;
#191 = PERSON_AND_ORGANIZATION_ROLE ( 'creator' ) ;
#192 = CIRCLE ( 'NONE', #242, 10.00000000000000000 ) ;
#193 = AXIS2_PLACEMENT_3D ( 'NONE', #182, #11, #57 ) ;
#194 = ADVANCED_FACE ( 'NONE', ( #132 ), #270, .F. ) ;
#195 = FACE_OUTER_BOUND ( 'NONE', #153, .T. ) ;
#196 = DIRECTION ( 'NONE',  ( 0.000000000000000000, 0.000000000000000000, 1.000000000000000000 ) ) ;
#197 = EDGE_CURVE ( 'NONE', #263, #67, #89, .T. ) ;
#198 = DIRECTION ( 'NONE',  ( 0.000000000000000000, 0.000000000000000000, -1.000000000000000000 ) ) ;
#199 = CIRCLE ( 'NONE', #142, 12.69999999999999929 ) ;
#200 = DIRECTION ( 'NONE',  ( 0.000000000000000000, 0.000000000000000000, 1.000000000000000000 ) ) ;
#201 = SECURITY_CLASSIFICATION ( '', '', #100 ) ;
#202 = DIRECTION ( 'NONE',  ( 1.000000000000000000, 0.000000000000000000, 0.000000000000000000 ) ) ;
#203 = ORIENTED_EDGE ( 'NONE', *, *, #164, .F. ) ;
#204 = CARTESIAN_POINT ( 'NONE',  ( -3.000000000000000000, 0.000000000000000000, 12.69999999999999929 ) ) ;
#205 = ADVANCED_FACE ( 'NONE', ( #82 ), #159, .F. ) ;
#206 = ORIENTED_EDGE ( 'NONE', *, *, #123, .F. ) ;
#207 = AXIS2_PLACEMENT_3D ( 'NONE', #320, #90, #115 ) ;
#208 = LOCAL_TIME ( 17, 7, 39.00000000000000000, #168 ) ;
#209 = DIRECTION ( 'NONE',  ( 0.000000000000000000, 0.000000000000000000, -1.000000000000000000 ) ) ;
#210 = VERTEX_POINT ( 'NONE', #267 ) ;
#211 = EDGE_LOOP ( 'NONE', ( #114, #203, #224, #69 ) ) ;
#212 = CARTESIAN_POINT ( 'NONE',  ( -1.614212418857619014, 0.000000000000000000, 0.000000000000000000 ) ) ;
#213 = VECTOR ( 'NONE', #111, 1000.000000000000000 ) ;
#214 = CC_DESIGN_PERSON_AND_ORGANIZATION_ASSIGNMENT ( #221, #191, ( #76 ) ) ;
#215 = VERTEX_POINT ( 'NONE', #51 ) ;
#216 = ORIENTED_EDGE ( 'NONE', *, *, #328, .F. ) ;
#217 = PERSON_AND_ORGANIZATION_ROLE ( 'design_owner' ) ;
#218 = CC_DESIGN_PERSON_AND_ORGANIZATION_ASSIGNMENT ( #6, #170, ( #201 ) ) ;
#219 = APPROVAL_ROLE ( '' ) ;
#220 = DESIGN_CONTEXT ( 'detailed design', #273, 'design' ) ;
#221 = PERSON_AND_ORGANIZATION ( #140, #306 ) ;
#222 = VECTOR ( 'NONE', #84, 1000.000000000000000 ) ;
#223 = CC_DESIGN_PERSON_AND_ORGANIZATION_ASSIGNMENT ( #228, #286, ( #83 ) ) ;
#224 = ORIENTED_EDGE ( 'NONE', *, *, #261, .T. ) ;
#225 = LOCAL_TIME ( 17, 7, 39.00000000000000000, #150 ) ;
#226 = DATE_AND_TIME ( #251, #208 ) ;
#227 = DIRECTION ( 'NONE',  ( -1.000000000000000000, -0.000000000000000000, -0.000000000000000000 ) ) ;
#228 = PERSON_AND_ORGANIZATION ( #140, #306 ) ;
#229 = CARTESIAN_POINT ( 'NONE',  ( 2.999999999999999112, 0.000000000000000000, 0.000000000000000000 ) ) ;
#230 = AXIS2_PLACEMENT_3D ( 'NONE', #312, #25, #282 ) ;
#231 = ORIENTED_EDGE ( 'NONE', *, *, #61, .F. ) ;
#232 = DATE_TIME_ROLE ( 'creation_date' ) ;
#233 = CARTESIAN_POINT ( 'NONE',  ( 2.999999999999999112, 12.69999999999999929, 0.000000000000000000 ) ) ;
#234 = APPLICATION_CONTEXT ( 'configuration controlled 3d designs of mechanical parts and assemblies' ) ;
#235 = ORIENTED_EDGE ( 'NONE', *, *, #323, .T. ) ;
#236 = EDGE_LOOP ( 'NONE', ( #133, #183, #78, #33 ) ) ;
#237 = CC_DESIGN_DATE_AND_TIME_ASSIGNMENT ( #333, #255, ( #201 ) ) ;
#238 = AXIS2_PLACEMENT_3D ( 'NONE', #167, #118, #97 ) ;
#239 = DIRECTION ( 'NONE',  ( 1.000000000000000000, 0.000000000000000000, 0.000000000000000000 ) ) ;
#240 = CARTESIAN_POINT ( 'NONE',  ( -2.500000000000000444, 0.000000000000000000, 10.00000000000000000 ) ) ;
#241 = APPROVAL ( #280, 'UNSPECIFIED' ) ;
#242 = AXIS2_PLACEMENT_3D ( 'NONE', #77, #124, #3 ) ;
#243 = ORIENTED_EDGE ( 'NONE', *, *, #61, .T. ) ;
#244 = ADVANCED_FACE ( 'NONE', ( #39 ), #158, .F. ) ;
#245 = CARTESIAN_POINT ( 'NONE',  ( -3.000000000000000000, 1.555301434917138433E-15, -12.69999999999999929 ) ) ;
#246 = ORIENTED_EDGE ( 'NONE', *, *, #28, .T. ) ;
#247 = AXIS2_PLACEMENT_3D ( 'NONE', #289, #202, #198 ) ;
#248 = COORDINATED_UNIVERSAL_TIME_OFFSET ( 8, 0, .AHEAD. ) ;
#249 = EDGE_CURVE ( 'NONE', #210, #268, #335, .T. ) ;
#250 = EDGE_CURVE ( 'NONE', #129, #288, #176, .T. ) ;
#251 = CALENDAR_DATE ( 2020, 22, 12 ) ;
#252 = FACE_OUTER_BOUND ( 'NONE', #211, .T. ) ;
#253 = FACE_OUTER_BOUND ( 'NONE', #236, .T. ) ;
#254 = ADVANCED_FACE ( 'NONE', ( #113 ), #32, .F. ) ;
#255 = DATE_TIME_ROLE ( 'classification_date' ) ;
#256 = CARTESIAN_POINT ( 'NONE',  ( 2.999999999999999112, 0.000000000000000000, 10.00000000000000000 ) ) ;
#257 = AXIS2_PLACEMENT_3D ( 'NONE', #233, #307, #49 ) ;
#258 = ORIENTED_EDGE ( 'NONE', *, *, #22, .T. ) ;
#259 = DIRECTION ( 'NONE',  ( -1.000000000000000000, -0.000000000000000000, -0.000000000000000000 ) ) ;
#260 = AXIS2_PLACEMENT_3D ( 'NONE', #43, #93, #139 ) ;
#261 = EDGE_CURVE ( 'NONE', #41, #324, #137, .T. ) ;
#262 = PRODUCT_DEFINITION_SHAPE ( 'NONE', 'NONE',  #76 ) ;
#263 = VERTEX_POINT ( 'NONE', #322 ) ;
#264 = DIRECTION ( 'NONE',  ( -1.000000000000000000, 0.000000000000000000, -0.000000000000000000 ) ) ;
#265 = CC_DESIGN_PERSON_AND_ORGANIZATION_ASSIGNMENT ( #72, #130, ( #83 ) ) ;
#266 = EDGE_LOOP ( 'NONE', ( #300, #12, #80, #53 ) ) ;
#267 = CARTESIAN_POINT ( 'NONE',  ( -2.500000000000000444, 1.224646799147353256E-15, -10.00000000000000000 ) ) ;
#268 = VERTEX_POINT ( 'NONE', #240 ) ;
#269 = CARTESIAN_POINT ( 'NONE',  ( -1.614212418857619014, 0.000000000000000000, 0.000000000000000000 ) ) ;
#270 = PLANE ( 'NONE',  #8 ) ;
#271 = EDGE_CURVE ( 'NONE', #86, #324, #188, .T. ) ;
#272 = MANIFOLD_SOLID_BREP ( 'Ðý×', #74 ) ;
#273 = APPLICATION_CONTEXT ( 'configuration controlled 3d designs of mechanical parts and assemblies' ) ;
#274 = ADVANCED_FACE ( 'NONE', ( #180 ), #294, .T. ) ;
#275 = DIRECTION ( 'NONE',  ( 0.000000000000000000, 0.000000000000000000, -1.000000000000000000 ) ) ;
#276 = PERSON_AND_ORGANIZATION ( #140, #306 ) ;
#277 = CARTESIAN_POINT ( 'NONE',  ( 2.500000000000000888, 0.000000000000000000, 10.00000000000000000 ) ) ;
#278 =( GEOMETRIC_REPRESENTATION_CONTEXT ( 3 ) GLOBAL_UNCERTAINTY_ASSIGNED_CONTEXT ( ( #308 ) ) GLOBAL_UNIT_ASSIGNED_CONTEXT ( ( #163, #329, #92 ) ) REPRESENTATION_CONTEXT ( 'NONE', 'WORKASPACE' ) );
#279 = CALENDAR_DATE ( 2020, 22, 12 ) ;
#280 = APPROVAL_STATUS ( 'not_yet_approved' ) ;
#281 = CARTESIAN_POINT ( 'NONE',  ( 2.500000000000000888, 1.224646799147353256E-15, -10.00000000000000000 ) ) ;
#282 = DIRECTION ( 'NONE',  ( 0.000000000000000000, 0.000000000000000000, 1.000000000000000000 ) ) ;
#283 = CALENDAR_DATE ( 2020, 22, 12 ) ;
#284 = PLANE ( 'NONE',  #257 ) ;
#285 = AXIS2_PLACEMENT_3D ( 'NONE', #212, #13, #15 ) ;
#286 = PERSON_AND_ORGANIZATION_ROLE ( 'creator' ) ;
#287 = CARTESIAN_POINT ( 'NONE',  ( -1.614212418857619014, 1.555301434917138433E-15, -12.69999999999999929 ) ) ;
#288 = VERTEX_POINT ( 'NONE', #245 ) ;
#289 = CARTESIAN_POINT ( 'NONE',  ( -3.000000000000000000, 10.00000000000000000, 0.000000000000000000 ) ) ;
#290 = ORIENTED_EDGE ( 'NONE', *, *, #123, .T. ) ;
#291 = DIRECTION ( 'NONE',  ( 0.000000000000000000, 0.000000000000000000, 1.000000000000000000 ) ) ;
#292 = EDGE_CURVE ( 'NONE', #14, #186, #1, .T. ) ;
#293 = CARTESIAN_POINT ( 'NONE',  ( 2.999999999999999112, 0.000000000000000000, 0.000000000000000000 ) ) ;
#294 = CYLINDRICAL_SURFACE ( 'NONE', #47, 12.69999999999999929 ) ;
#295 = CIRCLE ( 'NONE', #143, 10.00000000000000000 ) ;
#296 = ORIENTED_EDGE ( 'NONE', *, *, #165, .F. ) ;
#297 = CARTESIAN_POINT ( 'NONE',  ( -1.614212418857619014, 1.224646799147353256E-15, -10.00000000000000000 ) ) ;
#298 = AXIS2_PLACEMENT_3D ( 'NONE', #134, #179, #85 ) ;
#299 = DIRECTION ( 'NONE',  ( -1.000000000000000000, -0.000000000000000000, -0.000000000000000000 ) ) ;
#300 = ORIENTED_EDGE ( 'NONE', *, *, #22, .F. ) ;
#301 = DIRECTION ( 'NONE',  ( -1.000000000000000000, -0.000000000000000000, -0.000000000000000000 ) ) ;
#302 = ORIENTED_EDGE ( 'NONE', *, *, #292, .T. ) ;
#303 = ADVANCED_FACE ( 'NONE', ( #63 ), #145, .T. ) ;
#304 = APPROVAL_STATUS ( 'not_yet_approved' ) ;
#305 = AXIS2_PLACEMENT_3D ( 'NONE', #181, #36, #135 ) ;
#306 = ORGANIZATION ( 'UNSPECIFIED', 'UNSPECIFIED', '' ) ;
#307 = DIRECTION ( 'NONE',  ( -1.000000000000000000, 0.000000000000000000, -0.000000000000000000 ) ) ;
#308 = UNCERTAINTY_MEASURE_WITH_UNIT (LENGTH_MEASURE( 1.000000000000000082E-05 ), #163, 'distance_accuracy_value', 'NONE');
#309 = DIRECTION ( 'NONE',  ( -1.000000000000000000, -0.000000000000000000, -0.000000000000000000 ) ) ;
#310 = PRODUCT_RELATED_PRODUCT_CATEGORY ( 'detail', '', ( #79 ) ) ;
#311 = DATE_AND_TIME ( #45, #95 ) ;
#312 = CARTESIAN_POINT ( 'NONE',  ( -1.614212418857619014, 0.000000000000000000, 0.000000000000000000 ) ) ;
#313 = PERSON_AND_ORGANIZATION ( #140, #306 ) ;
#314 = PLANE ( 'NONE',  #247 ) ;
#315 = CC_DESIGN_APPROVAL ( #241, ( #201 ) ) ;
#316 = LINE ( 'NONE', #287, #88 ) ;
#317 = CARTESIAN_POINT ( 'NONE',  ( -2.500000000000000444, 0.000000000000000000, 0.000000000000000000 ) ) ;
#318 = AXIS2_PLACEMENT_3D ( 'NONE', #9, #5, #73 ) ;
#319 = EDGE_LOOP ( 'NONE', ( #302, #243, #330, #206 ) ) ;
#320 = CARTESIAN_POINT ( 'NONE',  ( -3.000000000000000444, 0.000000000000000000, 0.000000000000000000 ) ) ;
#321 = APPROVAL_PERSON_ORGANIZATION ( #313, #55, #70 ) ;
#322 = CARTESIAN_POINT ( 'NONE',  ( -3.000000000000000444, 0.000000000000000000, 10.00000000000000000 ) ) ;
#323 = EDGE_CURVE ( 'NONE', #210, #67, #119, .T. ) ;
#324 = VERTEX_POINT ( 'NONE', #277 ) ;
#325 = ORIENTED_EDGE ( 'NONE', *, *, #28, .F. ) ;
#326 = CARTESIAN_POINT ( 'NONE',  ( -1.614212418857619014, 0.000000000000000000, 10.00000000000000000 ) ) ;
#327 = CARTESIAN_POINT ( 'NONE',  ( -1.614212418857619014, 1.224646799147353256E-15, -10.00000000000000000 ) ) ;
#328 = EDGE_CURVE ( 'NONE', #268, #210, #94, .T. ) ;
#329 =( NAMED_UNIT ( * ) PLANE_ANGLE_UNIT ( ) SI_UNIT ( $, .RADIAN. ) );
#330 = ORIENTED_EDGE ( 'NONE', *, *, #250, .F. ) ;
#331 = CALENDAR_DATE ( 2020, 22, 12 ) ;
#332 = AXIS2_PLACEMENT_3D ( 'NONE', #75, #309, #200 ) ;
#333 = DATE_AND_TIME ( #279, #2 ) ;
#334 = DIRECTION ( 'NONE',  ( -1.000000000000000000, -0.000000000000000000, -0.000000000000000000 ) ) ;
#335 = CIRCLE ( 'NONE', #154, 10.00000000000000000 ) ;
ENDSEC;
END-ISO-10303-21;
